1 Januari 2018

Latihan Gitar

Untuk siap memainkan gitar maka ada baiknya melakukan latihan atau pemanasan agar jemari dan otot siap untuk bermain dengan baik dan benar.

Ilustrasi Latihan Gitar

Arahan pemetikan:
  • U = Upstroke (Hentakan ke atas)
  • D = Downstroke (Hentakan ke bawah)

Indeks Jemari:
  • I = Index Finger (Jari Telunjuk)
  • M = Middle Finger (Jari Tengah)
  • R = Ring Finger (Jari Manis)
  • P = Pinky (Jari Kelingking)

Latihan berikut ini dapat dimainkan oleh gitaris baik yang sudah mahir maupun yang baru belajar.

I M R P I M R P I M R P I M R P I M R P I M R P  
e|-----------------------------------------1-2-3-4-|
B|---------------------------------1-2-3-4---------|
G|-------------------------1-2-3-4-----------------|
D|-----------------1-2-3-4-------------------------|
A|---------1-2-3-4---------------------------------|
E|-1-2-3-4-----------------------------------------|
D U D U D U D U D U D U D U D U D U D U D U D U  

P R M I P R M I P R M I P R M I P R M I P R M I  
e|-4-3-2-1-----------------------------------------|
B|---------4-3-2-1---------------------------------|
G|-----------------4-3-2-1-------------------------|
D|-------------------------4-3-2-1-----------------|
A|---------------------------------4-3-2-1---------|
E|-----------------------------------------4-3-2-1-|
D U D U D U D U D U D U D U D U D U D U D U D U

Bentuk latihan yang lain.

I M P R I M P R I M P R I M P R I M P R I M P R  
e|-----------------------------------------1-2-4-3-|
B|---------------------------------1-2-4-3---------|
G|-------------------------1-2-4-3-----------------|
D|-----------------1-2-4-3-------------------------|
A|---------1-2-4-3---------------------------------|
E|-1-2-4-3-----------------------------------------|
D U D U D U D U D U D U D U D U D U D U D U D U  

R P M I R P M I R P M I R P M I R P M I R P M I
e|-3-4-2-1-----------------------------------------|
B|---------3-4-2-1---------------------------------|
G|-----------------3-4-2-1-------------------------|
D|-------------------------3-4-2-1-----------------|
A|---------------------------------3-4-2-1---------|
E|-----------------------------------------3-4-2-1-|
D U D U D U D U D U D U D U D U D U D U D U D U  

Latihan berikut ini disertai dengan teknik Hentakan (Hammer ons) dan Tarikan (pull offs).

h = Hammer On
p = Pull Off

I M R P I M R P I M R P I M R P I M R P I M R P  
e|-----------------------------------------1h2-3h4-|
B|---------------------------------1h2-3h4---------|
G|-------------------------1h2-3h4-----------------|
D|-----------------1h2-3h4-------------------------|
A|---------1h2-3h4---------------------------------|
E|-1h2-3h4-----------------------------------------|
   D   U   D   U   D   U   D   U   D   U   D   U    

   P R M I P R M I P R M I P R M I P R M I P R M I  
e|-4p3-2p1-----------------------------------------|
B|---------4p3-2p1---------------------------------|
G|-----------------4p3-2p1-------------------------|
D|-------------------------4p3-2p1-----------------|
A|---------------------------------4p3-2p1---------|
E|-----------------------------------------4p3-2p1-|
   D   U   D   U   D   U   D   U   D   U   D   U    

Bentuk latihan yang lain.

M I R P M I R P M I R P M I R P M I R P M I R P  
e|-----------------------------------------2p1-3h4-|
B|---------------------------------2p1-3h4---------|
G|-------------------------2p1-3h4-----------------|
D|-----------------2p1-3h4-------------------------|
A|---------2p1-3h4---------------------------------|
E|-2p1-3h4-----------------------------------------|
   D   U   D   U   D   U   D   U   D   U   D   U    

   P R I M P R I M P R I M P R I M P R I M P R I M  
e|-4p3-1h2-----------------------------------------|
B|---------4p3-1h2---------------------------------|
G|-----------------4p3-1h2-------------------------|
D|-------------------------4p3-1h2-----------------|
A|---------------------------------4p3-1h2---------|
E|-----------------------------------------4p3-1h2-|
   D   U   D   U   D   U   D   U   D   U   D   U    

I M R P I M R P I M R P I M R P I M R P I M R P  
e|-----------------------------------------1h2h3h4-|
B|---------------------------------1h2h3h4---------|
G|-------------------------1h2h3h4-----------------|
D|-----------------1h2h3h4-------------------------|
A|---------1h2h3h4---------------------------------|
E|-1h2h3h4-----------------------------------------|
   D       U       D       U       D       U        


   P R M I P R M I P R M I P R M I P R M I P R M I  
e|-4p3p2p1-----------------------------------------|
B|---------4p3p2p1---------------------------------|
G|-----------------4p3p2p1-------------------------|
D|-------------------------4p3p2p1-----------------|
A|---------------------------------4p3p2p1---------|
E|-----------------------------------------4p3p2p1-|
   D       U       D       U       D       U        

I M P R I M P R I M P R I M P R I M P R I M P R  
e|-----------------------------------------1h2h4p3-|
B|---------------------------------1h2h4p3---------|
G|-------------------------1h2h4p3-----------------|
D|-----------------1h2h4p3-------------------------|
A|---------1h2h4p3---------------------------------|
E|-1h2h4p3-----------------------------------------|
   D       U       D       U       D       U        

   I M P R I M P R I M P R I M P R I M P R I M P R  
e|-3h4p2p1-----------------------------------------|
B|---------3h4p2p1---------------------------------|
G|-----------------3h4p2p1-------------------------|
D|-------------------------3h4p2p1-----------------|
A|---------------------------------3h4p2p1---------|
E|-----------------------------------------3h4p2p1-|
   D       U       D       U       D       U        


I M R P I M R P I M R P I M R P I M R P I M R P  
e|-------------------------1-2-3-4-----------------|
B|-----------------1-2-3-4-------------------------|
G|---------------------------------1-2-3-4---------|
D|---------1-2-3-4---------------------------------|
A|-----------------------------------------1-2-3-4-|
E|-1-2-3-4-----------------------------------------|
   D U D U D U D U D U D U D U D U D U D U D U D U  
  
P R M I P R M I P R M I P R M I P R M I P R M I  
e|-----------------4-3-2-1-------------------------|
B|-------------------------4-3-2-1-----------------|
G|---------4-3-2-1---------------------------------|
D|---------------------------------4-3-2-1---------|
A|-4-3-2-1-----------------------------------------|
E|-----------------------------------------4-3-2-1-|
   D U D U D U D U D U D U D U D U D U D U D U D U  
  

I M P R I M P R I M P R I M P R I M P R I M P R  
e|-------------------------1-2-4-3-----------------|
B|-----------------1-2-4-3-------------------------|
G|---------------------------------1-2-4-3---------|
D|---------1-2-4-3---------------------------------|
A|-----------------------------------------1-2-4-3-|
E|-1-2-4-3-----------------------------------------|
   D U D U D U D U D U D U D U D U D U D U D U D U  
  
R P M I R P M I R P M I R P M I R P M I R P M I  
e|-----------------3-4-2-1-------------------------|
B|-------------------------3-4-2-1-----------------|
G|---------3-4-2-1---------------------------------|
D|---------------------------------3-4-2-1---------|
A|-3-4-2-1-----------------------------------------|
E|-----------------------------------------3-4-2-1-|
   D U D U D U D U D U D U D U D U D U D U D U D U  
  

I M R P I M R P I M R P I M R P I M R P I M R P  
e|-------------------------1h2-3h4-----------------|
B|-----------------1h2-3h4-------------------------|
G|---------------------------------1h2-3h4---------|
D|---------1h2-3h4---------------------------------|
A|-----------------------------------------1h2-3h4-|
E|-1h2-3h4-----------------------------------------|
   D   U   D   U   D   U   D   U   D   U   D   U    
  
P R M I P R M I P R M I P R M I P R M I P R M I  
e|-----------------4p3-2p1-------------------------|
B|-------------------------4p3-2p1-----------------|
G|---------4p3-2p1---------------------------------|
D|---------------------------------4p3-2p1---------|
A|-4p3-2p1-----------------------------------------|
E|-----------------------------------------4p3-2p1-|
   D   U   D   U   D   U   D   U   D   U   D   U    
  

M I R P M I R P M I R P M I R P M I R P M I R P  
e|-------------------------2p1-3h4-----------------|
B|-----------------2p1-3h4-------------------------|
G|---------------------------------2p1-3h4---------|
D|---------2p1-3h4---------------------------------|
A|-----------------------------------------2p1-3h4-|
E|-2p1-3h4-----------------------------------------|
   D   U   D   U   D   U   D   U   D   U   D   U    
  
P R I M P R I M P R I M P R I M P R I M P R I M  
e|-----------------4p3-1h2-------------------------|
B|-------------------------4p3-1h2-----------------|
G|---------4p3-1h2---------------------------------|
D|---------------------------------4p3-1h2---------|
A|-4p3-1h2-----------------------------------------|
E|-----------------------------------------4p3-1h2-|
   D   U   D   U   D   U   D   U   D   U   D   U    
  

I M R P I M R P I M R P I M R P I M R P I M R P  
e|-------------------------1h2h3h4-----------------|
B|-----------------1h2h3h4-------------------------|
G|---------------------------------1h2h3h4---------|
D|---------1h2h3h4---------------------------------|
A|-----------------------------------------1h2h3h4-|
E|-1h2h3h4-----------------------------------------|
   D       U       D       U       D       U        
  
P R M I P R M I P R M I P R M I P R M I P R M I  
e|-----------------4p3p2p1-------------------------|
B|-------------------------4p3p2p1-----------------|
G|---------4p3p2p1---------------------------------|
D|---------------------------------4p3p2p1---------|
A|-4p3p2p1-----------------------------------------|
E|-----------------------------------------4p3p2p1-|
   D       U       D       U       D       U        
  

I M P R I M P R I M P R I M P R I M P R I M P R  
e|-------------------------1h2h4p3-----------------|
B|-----------------1h2h4p3-------------------------|
G|---------------------------------1h2h4p3---------|
D|---------1h2h4p3---------------------------------|
A|-----------------------------------------1h2h4p3-|
E|-1h2h4p3-----------------------------------------|
   D       U       D       U       D       U        
  
R P M I R P M I R P M I R P M I R P M I R P M I  
e|-----------------3h4p2p1-------------------------|
B|-------------------------3h4p2p1-----------------|
G|---------3h4p2p1---------------------------------|
D|---------------------------------3h4p2p1---------|
A|-3h4p2p1-----------------------------------------|
E|-----------------------------------------3h4p2p1-|
   D       U       D       U       D       U        
  

I M R P I M R P I M R P I M R P I M R P I M R P  
e|-----------------------------------------1-2-3-4-|
B|-------------------------1-2-3-4-----------------|
G|---------1-2-3-4---------------------------------|
D|---------------------------------1-2-3-4---------|
A|-----------------1-2-3-4-------------------------|
E|-1-2-3-4-----------------------------------------|
   D U D U D U D U D U D U D U D U D U D U D U D U  
  
P R M I P R M I P R M I P R M I P R M I P R M I  
e|-4-3-2-1-----------------------------------------|
B|-----------------4-3-2-1-------------------------|
G|---------------------------------4-3-2-1---------|
D|---------4-3-2-1---------------------------------|
A|-------------------------4-3-2-1-----------------|
E|-----------------------------------------4-3-2-1-|
   D U D U D U D U D U D U D U D U D U D U D U D U  
  

I M R P I M R P I M R P I M R P I M R P I M R P  
e|-----------------------------------------1h2-3h4-|
B|-------------------------1h2-3h4-----------------|
G|---------1h2-3h4---------------------------------|
D|---------------------------------1h2-3h4---------|
A|-----------------1h2-3h4-------------------------|
E|-1h2-3h4-----------------------------------------|
   D   U   D   U   D   U   D   U   D   U   D   U    
  
P R M I P R M I P R M I P R M I P R M I P R M I  
e|-4p3-2p1-----------------------------------------|
B|-----------------4p3-2p1-------------------------|
G|---------------------------------4p3-2p1---------|
D|---------4p3-2p1---------------------------------|
A|-------------------------4p3-2p1-----------------|
E|-----------------------------------------4p3-2p1-|
   D   U   D   U   D   U   D   U   D   U   D   U    
  

M I R P M I R P M I R P M I R P M I R P M I R P  
e|-----------------------------------------2p1-3h4-|
B|-------------------------2p1-3h4-----------------|
G|---------2p1-3h4---------------------------------|
D|---------------------------------2p1-3h4---------|
A|-----------------2p1-3h4-------------------------|
E|-2p1-3h4-----------------------------------------|
   D   U   D   U   D   U   D   U   D   U   D   U    
  
P R I M P R I M P R I M P R I M P R I M P R I M  
e|-4p3-1h2-----------------------------------------|
B|-----------------4p3-1h2-------------------------|
G|---------------------------------4p3-1h2---------|
D|---------4p3-1h2---------------------------------|
A|-------------------------4p3-1h2-----------------|
E|-----------------------------------------4p3-1h2-|
   D   U   D   U   D   U   D   U   D   U   D   U    
  

I M R P I M R P I M R P I M R P I M R P I M R P  
e|-----------------------------------------1h2h3h4-|
B|-------------------------1h2h3h4-----------------|
G|---------1h2h3h4---------------------------------|
D|---------------------------------1h2h3h4---------|
A|-----------------1h2h3h4-------------------------|
E|-1h2h3h4-----------------------------------------|
   D       U       D       U       D       U        
  
P R M I P R M I P R M I P R M I P R M I P R M I  
e|-4p3p2p1-----------------------------------------|
B|-----------------4p3p2p1-------------------------|
G|---------------------------------4p3p2p1---------|
D|---------4p3p2p1---------------------------------|
A|-------------------------4p3p2p1-----------------|
E|-----------------------------------------4p3p2p1-|
   D       U       D       U       D       U        
  

I M P R I M P R I M P R I M P R I M P R I M P R  
e|-----------------------------------------1h2h4p3-|
B|-------------------------1h2h4p3-----------------|
G|---------1h2h4p3---------------------------------|
D|---------------------------------1h2h4p3---------|
A|-----------------1h2h4p3-------------------------|
E|-1h2h4p3-----------------------------------------|
   D       U       D       U       D       U        
  
R P M I R P M I R P M I R P M I R P M I R P M I  
e|-3h4p2p1-----------------------------------------|
B|-----------------3h4p2p1-------------------------|
G|---------------------------------3h4p2p1---------|
D|---------3h4p2p1---------------------------------|
A|-------------------------3h4p2p1-----------------|
E|-----------------------------------------3h4p2p1-|
   D       U       D       U       D       U