10 Januari 2018

Memainkan Akor Dasar

Bermain gitar tidak seharusnya terpaku pada daftar akor yang kadang sulit diingat namun ada baiknya untuk pemula agar terbiasa dengan bebunyian nada pada gitar maka mengenal beberapa akor dasar seperti akor C, G, D, A, E, B, F#, Db, Ab, Eb, Bb dan F.

Memainkan Akor Dasar

Berikut tab gitarnya:
C                                             G               
E||-------0---------0----|-------0---------0----|-------3---------3----|
B||-------1---------1----|-------1---------1----|-------0---------0----|
G||-------0---------0----|-------0---------0----|-------0---------0----|
D||-------2---------2----|-------2---------2----|-------0---------0----|
A||-------3---------3----|-------3---------3----|-------2---------2----|
E||-------x---------x----|-------x---------x----|-------3---------3----|


                              D                                      
-------3---------3----|-------2---------2----|-------2---------2----|
-------0---------0----|-------3---------3----|-------3---------3----|
-------0---------0----|-------2---------2----|-------2---------2----|
-------0---------0----|-------0---------0----|-------0---------0----|
-------2---------2----|-------x---------x----|-------x---------x----|
-------3---------3----|-------x---------x----|-------x---------x----|


       A                                             E               
-------0---------0----|-------0---------0----|-------0---------0----|
-------2---------2----|-------2---------2----|-------0---------0----|
-------2---------2----|-------2---------2----|-------1---------1----|
-------2---------2----|-------2---------2----|-------2---------2----|
-------0---------0----|-------0---------0----|-------2---------2----|
-------x---------x----|-------x---------x----|-------0---------0----|


                              B                                      
-------0---------0----|-------x---------x----|-------x---------x----|
-------0---------0----|-------4---------4----|-------4---------4----|
-------1---------1----|-------4---------4----|-------4---------4----|
-------2---------2----|-------4---------4----|-------4---------4----|
-------2---------2----|-------2---------2----|-------2---------2----|
-------0---------0----|-------x---------x----|-------x---------x----|


       F#                                            Db              
-------2---------2----|-------2---------2----|-------x---------x----|
-------2---------2----|-------2---------2----|-------6---------6----|
-------3---------3----|-------3---------3----|-------6---------6----|
-------4---------4----|-------4---------4----|-------6---------6----|
-------4---------4----|-------4---------4----|-------4---------4----|
-------2---------2----|-------2---------2----|-------x---------x----|


                              Ab                                     
-------x---------x----|-------4---------4----|-------4---------4----|
-------6---------6----|-------4---------4----|-------4---------4----|
-------6---------6----|-------5---------5----|-------5---------5----|
-------6---------6----|-------6---------6----|-------6---------6----|
-------4---------4----|-------6---------6----|-------6---------6----|
-------x---------x----|-------4---------4----|-------4---------4----|


       Eb                                            Bb              
-------x---------x----|-------x---------x----|-------x---------x----|
-------8---------8----|-------8---------8----|-------3---------3----|
-------8---------8----|-------8---------8----|-------3---------3----|
-------8---------8----|-------8---------8----|-------3---------3----|
-------6---------6----|-------6---------6----|-------1---------1----|
-------x---------x----|-------x---------x----|-------x---------x----|


                              F                                        
-------x---------x----|-------1---------1----|-------1---------1-----||
-------3---------3----|-------1---------1----|-------1---------1-----||
-------3---------3----|-------2---------2----|-------2---------2----*||
-------3---------3----|-------3---------3----|-------3---------3----*||
-------1---------1----|-------3---------3----|-------3---------3-----||
-------x---------x----|-------1---------1----|-------1---------1-----||


       C               
-------0-------------||
-------1-------------||
-------0-------------||
-------2-------------||
-------3-------------||
-------0-------------||