10 Januari 2018

Menyetem Gitar

Agar suara gitar tetap terdengar bagus untuk dimainkan maka sesekali perlu menyetem gitar dengan menyelaraskan bunyi setiap senar yang dipetik/dimainkan.

Menyetem Gitar

Menyetem gitar tidaklah terlalu sulit untuk dilakukan, bagi pemula berikut ini adalah caranya yaitu:
  • Petik/bunyikan senar 6 di fret 5 bersamaan dengan senar 5 jika nadanya selaras lanjutkan dengan;
  • Petik/bunyikan senar 5 di fret 5 bersamaan dengan senar 4 jika nadanya selaras lanjutkan dengan;
  • Petik/bunyikan senar 4 di fret 5 bersamaan dengan senar 3 jika nadanya selaras lanjutkan dengan;
  • Petik/bunyikan senar 3 di fret 4 bersamaan dengan senar 2 jika nadanya selaras lanjutkan dengan;
  • Petik/bunyikan senar 2 di fret 5 bersamaan dengan senar 1 jika nadanya selaras lanjutkan dengan;
Berikut tab gitarnya:

E||----------------------|----------------------|----------------------||
B||----------------------|----------------------|----------------------||
G||----------------------|----------------------|-------0---------0----||
D||----------------------|-------0---------0----|-------5---------5----||
A||-------0---------0----|-------5---------5----|----------------------||
E||-------5---------5----|----------------------|----------------------||


E||----------------------|-------0---------0----||
E||-------0---------0----|-------5---------5----||
E||-------4---------4----|----------------------||
E||----------------------|----------------------||
E||----------------------|----------------------||
E||----------------------|----------------------||